The SIGIT - Let The Right One in (Chord and Tab)


chord dan tab gitar the sigit

Judul : Let The Right One in
Artist: THE SIGIT
Tabbed by : Andry

[Intro]
C#5 3x

e|--------------------|
B|--------------------|
G|-----------------6--|
D|-------2---2-----6--| B5 E5 B5 C#5 B5 E5 B5 C#5----------B5 C#5-|
A|-2-4-2---2---2-2-4--|
E|--------------------|


[Verse]
C#5 B5 E5 B5 C#5        C#5 B5 E5 B5 C#5
Does anyone has not the minds like me?
C#5 B5 E5 B5 C#5                          C#5 B5 E5 B5
Judging things from what it seems taken away by streams
A5
Taken away by streams
F#5
Away from our dreams

[Chorus]
 C#5

          Let the right one in
e|-----------------------------|
B|-----------------------------|
G|---------6-6-6--6-6-6--6-6-6-|
D|-----2-6-6-6-6--6-6-6--6-6-6-|
A|-5-4-----4-4-4--4-4-4--4-4-4-|
E|-----------------------------|

          Let the right one in
E|-------------------------------|
B|-------------------------------|
G|-----------6-6-6--6-6-6--6-6-6-|
D|-4h6-------6-6-6--6-6-6--6-6-6-|
A|-----7h9-5-4-4-4--4-4-4--4-4-4-|
E|-------------------------------|

          Let the right one in
E|-------------------------------|
B|-------------------------------|
G|-----------6-6-6--6-6-6--6-6-6-|
D|-4h6-------6-6-6--6-6-6--6-6-6-|
A|-----7h9-5-4-4-4--4-4-4--4-4-4-|
E|-------------------------------|

          Let the right one in
E|--------------------------------------|
B|--------------------------------------|
G|-----------6-6-6--6-6-6--6-6-6--------|
D|-4h6-------6-6-6--6-6-6--6-6-6----2-6-|
A|-----7h9-5-4-4-4--4-4-4--4-4-4-5-4----|
E|--------------------------------------|


[Verse]
C#5 B5 E5 B5 C#5       C#5 B5 E5 B5 C#5
Does anyone has not the hash like me?
C#5 B5 E5 B5 C#5                C#5 B5 E5 B5
Dancing in our memory weeping down to the knee
A5
Down in the sea of tears
 F#5
Away from my fears

          Let the right one in
e|-----------------------------|
B|-----------------------------|
G|---------6-6-6--6-6-6--6-6-6-|
D|-----2-6-6-6-6--6-6-6--6-6-6-|
A|-5-4-----4-4-4--4-4-4--4-4-4-|
E|-----------------------------|

          Let the right one in
E|-------------------------------|
B|-------------------------------|
G|-----------6-6-6--6-6-6--6-6-6-|
D|-4h6-------6-6-6--6-6-6--6-6-6-|
A|-----7h9-5-4-4-4--4-4-4--4-4-4-|
E|-------------------------------|

          Let the right one in
E|-------------------------------|
B|-------------------------------|
G|-----------6-6-6--6-6-6--6-6-6-|
D|-4h6-------6-6-6--6-6-6--6-6-6-|
A|-----7h9-5-4-4-4--4-4-4--4-4-4-|
E|-------------------------------|

          Let the right one in
E|-------------------------------|
B|-------------------------------|
G|-----------6-6-6--6-6-6--6-6-6-|
D|-4h6-------6-6-6--6-6-6--6-6-6-|
A|-----7h9-5-4-4-4--4-4-4--4-4-4-|
E|-------------------------------|


A5
In the sea of tears
F#5                C#5
Away from our fears

e|-----------------------------|
B|-----------------------------|
G|---------6-6-6--6-6-6--6-6-6-|
D|-----2-6-6-6-6--6-6-6--6-6-6-|
A|-5-4-----4-4-4--4-4-4--4-4-4-|
E|-----------------------------|

e|------------------------------------|
B|------------------------------------|
G|---------6-6-6--6-6-6--6-6-6--------|
D|-----2-6-6-6-6--6-6-6--6-6-6-----2-6|
A|-5-4-----4-4-4--4-4-4--4-4-4-5-4----|
E|------------------------------------|

A5                 F#5
In the bottom strings
A5                 F#5
Away from our dreams

[Solo]

e|---------------------------------------------|
B|-9-9-9-9-9-9-9-9-7-9-9-9-9-9-9-9-7-9-9-9-9-9-|
G|---------------------------------------------|
D|---------------------------------------------|
A|---------------------------------------------|
E|---------------------------------------------|

e|-----------------------------|
B|-----------------------------|
G|---------6-6-6--6-6-6--6-6-6-|
D|-----2-6-6-6-6--6-6-6--6-6-6-|
A|-5-4-----4-4-4--4-4-4--4-4-4-|
E|-----------------------------|

e|-----------------------------|
B|-----------------------------|
G|---------6-6-6--6-6-6--6-6-6-|
D|-----2-6-6-6-6--6-6-6--6-6-6-|
A|-5-4-----4-4-4--4-4-4--4-4-4-|
E|-----------------------------|

e|-----------------------------|
B|-----------------------------|
G|---------6-6-6--6-6-6--6-6-6-|
D|-----2-6-6-6-6--6-6-6--6-6-6-|
A|-5-4-----4-4-4--4-4-4--4-4-4-|
E|-----------------------------|

e|-----------------------------|
B|-----------------------------|
G|---------6-6-6--6-6-6--6-6-6-|
D|-----2-6-6-6-6--6-6-6--6-6-6-|
A|-5-4-----4-4-4--4-4-4--4-4-4-|
E|-----------------------------|

[Chorus]
 C#5

          Let the right one in
e|-----------------------------|
B|-----------------------------|
G|---------6-6-6--6-6-6--6-6-6-|
D|-----2-6-6-6-6--6-6-6--6-6-6-|
A|-5-4-----4-4-4--4-4-4--4-4-4-|
E|-----------------------------|

          Let the right one in
E|-------------------------------|
B|-------------------------------|
G|-----------6-6-6--6-6-6--6-6-6-|
D|-4h6-------6-6-6--6-6-6--6-6-6-|
A|-----7h9-5-4-4-4--4-4-4--4-4-4-|
E|-------------------------------|

          Let the right one in
E|-------------------------------|
B|-------------------------------|
G|-----------6-6-6--6-6-6--6-6-6-|
D|-4h6-------6-6-6--6-6-6--6-6-6-|
A|-----7h9-5-4-4-4--4-4-4--4-4-4-|
E|-------------------------------|

          Let the right one in
E|----------------------------------------|
B|----------------------------------------|
G|-----------6-6-6--6-6-6--6-6-6--------6-|
D|-4h6-------6-6-6--6-6-6--6-6-6----2-6-6-|
A|-----7h9-5-4-4-4--4-4-4--4-4-4-5-4----4-|
E|----------------------------------------|


Postingan terkait:

Belum ada tanggapan untuk "The SIGIT - Let The Right One in (Chord and Tab)"

Post a Comment