Nirvana - smells like teen spirit (Chord and Tab)

Nirvana -  smells like teen spirit (Chord and Tab)

Judul : Smells like teen spirit
Artist: Nirvana
Tabbed by: Andry

Intro : F5 A#5 G#5 C#5 x4

e|--------|
B|----6---|
G|--5-----|
D|--------|
A|--------|
E|--------|

F5 A#5 G#5 C#5 (Bass Playing)
Load up on guns, bring your friends
F5 A#5 G#5 C#5 (Bass Playing)
It's fun to lose and to pretend
F5 A#5 G#5 C#5 (Bass Playing)
She's over bored and self assured
F5 A#5 G#5 C#5 (Bass Playing)
Oh no, I know a dirty word

e|--------|
B|------6-|
G|--5-5---|
D|--------| Sampai masuk reff
A|--------|
E|--------|

Hello, hello, hello, how low? [x3]
Hello, hello, hello!

F5 A#5 G#5 C#5
With the lights out, it's less dangerous
F5 A#5 G#5 C#5
Here we are now, entertain us
F5 A#5 G#5 C#5
I feel stupid and contagious
F5 A#5 G#5 C#5
Here we are now, entertain us
F5 A#5
A mulatto
G#5 C#5
An albino
F5 A#5
A mosquito
G#5 C#5
My libido

bridge: F5 F#5 A#5 G#5

e|-------------------------|
B|-------------------------|
G|---------3-----3-3-------|
D|-3-3-4-4---3-3-3-3-6-6---| x2
A|-3-3-4-4---3-3-1-1-6-6---|
E|-1-1-2-2---1-1-----4-4---|

Yeah, hey, yay

e|--------|
B|----6---|
G|--5-----|
D|--------|
A|--------|
E|--------|

F5 A#5 G#5 C#5 (Bass Playing)
I'm worse at what I do best
F5 A#5 G#5 C#5 (Bass Playing)
And for this gift I feel blessed
F5 A#5 G#5 C#5 (Bass Playing)
Our little group has always been
F5 A#5 G#5 C#5 (Bass Playing)
And always will until the end




e|--------|
B|------6-|
G|--5-5---|
D|--------| Sampai masuk reff
A|--------|
E|--------|

Hello, hello, hello, how low? [x3]
Hello, hello, hello!

F5 A#5 G#5 C#5
With the lights out, it's less dangerous
F5 A#5 G#5 C#5
Here we are now, entertain us
F5 A#5 G#5 C#5
I feel stupid and contagious
F5 A#5 G#5 C#5
Here we are now, entertain us
F5 A#5
A mulatto
G#5 C#5
An albino
F5 A#5
A mosquito
G#5 C#5
My libido

Yeah, hey, yay

bridge: F5 F#5 A#5 G#5

e|-------------------------|
B|-------------------------|
G|---------3-----3-3-------|
D|-3-3-4-4---3-3-3-3-6-6---| x2
A|-3-3-4-4---3-3-1-1-6-6---|
E|-1-1-2-2---1-1-----4-4---|

                  2x                            2x
e|----------------------------------|---------------------|
B|------6-----6---------------------|---------------------|
G|--5-8-----8---8-5-6-5-------5-----|---------------------|
D|--------6-------------8-6-8---8-5-|-6-5-6-5-6-5-5h6-5-3-|
A|----------------------------------|---------------------|
E|----------------------------------|---------------------|



F5 A#5 G#5 C#5 (Bass Playing)
And I forget just why I taste\
F5 A#5 G#5 C#5 (Bass Playing)
Oh yeah, I guess it makes me smile
F5 A#5 G#5 C#5 (Bass Playing)
I found it hard, it's hard to find
F5 A#5 G#5 C#5 (Bass Playing)
Oh well, whatever, never mind

e|--------|
B|------6-|
G|--5-5---|
D|--------| Sampai masuk reff
A|--------|
E|--------|

Hello, hello, hello, how low? [x3]
Hello, hello, hello!

F5 A#5 G#5 C#5
With the lights out, it's less dangerous
F5 A#5 G#5 C#5
Here we are now, entertain us
F5 A#5 G#5 C#5
I feel stupid and contagious
F5 A#5 G#5 C#5
Here we are now, entertain us
F5 A#5
A mulatto
G#5 C#5
An albino
F5 A#5
A mosquito
G#5 C#5
My libido


A denial! [x9]


Postingan terkait:

Belum ada tanggapan untuk "Nirvana - smells like teen spirit (Chord and Tab)"

Post a Comment