Dygta - Karena aku sayang kamu (Chord and Tab)

Dygta - Karena aku sayang kamu (Chord and Tab)

Judul     : Karena Aku sayang kamu
Artist    : Dygta
Tabbed by : Andry

Intro : 
C Am Dm G (2X)

Tab Intro

#Petikan
e|-------3-------3-------3-3-------3--------|
B|---------------------3---3-------3--------|
G|-----2-------2-----2-----------2---2------|
D|---3-------2-----0-----------3-------3----|
A|-3-------0-----------------3-----------3--|
E|------------------------------------------|

#Melody
e|---7h8-6-5-5h8---7h8-6-5-5h8-6-5-----------5-------------|
B|---------------------------------8-6---6-8---8-6-6h8-6h8-|
G|-5-------------5-----------------------------------------|
D|-------------------------------------8-------------------|
A|---------------------------------------------------------|
E|---------------------------------------------------------|

c              Am             Dm
Seandainya kau ada disini denganku 
        G 
Mungkin ku tak sendiri 
C             Am             Dm
Bayanganmu yang selalu menemaniku 
  G          Dm    
Hiasi malam sepiku 
             G 
Kuingin bersama dirimu 

reff:  
              F                  G 
Kutak akan pernah berpaling darimu 
        Em             Am
Walau kini kau jauh dariku 
             Dm
Kan selalu kunanti  
        G            
Karena kusayang kamu 


musik :
D F G

e|-6h8-----------5-6-5---|
B|-----5-6---6-8-------7-|
G|---------5-------------|
D|-----------------------|
A|-----------------------|
E|-----------------------|



C             Am             Dm 
Hati ini selalu memanggil namamu 
       G
Dengarlah melatiku 
C              Am               Dm
Kuberjanji hanyalah untukmu cintaku 
       G                  C 
Takkan pernah ada yg lain 

F              Em 
Adakah rindu di hatimu 
Dm                G 
Seperti rindu yg kurasa 
Dm                  Em 
Sanggupkah kuterus terlena 
    F 
Tanpamu di sisiku 
  Dm         G        C 
Kukan selalu menantimu 

#Melody
e|-4-4-6-6-8-8-9-9-11-9-8-11-----11-9-8-11-8h9-7h8-----------8-9-8----|
B|---------------------------8-8-------------------9----9-11-------11-|
G|---------------------------------------------------10---------------|
D|--------------------------------------------------------------------|
A|--------------------------------------------------------------------|
E|--------------------------------------------------------------------|

e|---------------------------------8-11-9-8-------------8-8-----------|
B|-11\9-8--------------8-9----9-11----------11-9-8----------11-10-8---|
G|--------8h10-8----10-----10----------------------10-8-------------11|
D|---------------10---------------------------------------------------|
A|--------------------------------------------------------------------|
E|--------------------------------------------------------------------|

e|-4-4-6-6-8-8-9-9-11-|
B|--------------------|
G|--------------------|
D|--------------------|
A|--------------------|
E|--------------------|

c              Am             Dm
Seandainya kau ada disini denganku 
        G 
Mungkin ku tak sendiri 
C             Am             Dm
Bayanganmu yang selalu menemaniku 
  G          Dm    
Hiasi malam sepiku 
             G 
Kuingin bersama dirimu 

reff:  
              F                  G 
Kutak akan pernah berpaling darimu 
        Em             Am
Walau kini kau jauh dariku 
             Dm
Kan selalu kunanti  
        G            
Karena kusayang kamu 

Postingan terkait:

Belum ada tanggapan untuk "Dygta - Karena aku sayang kamu (Chord and Tab)"

Post a Comment