The SIGIT - Black Amplifire (Chord and Tab)

The S.I.G.I.T - Black Amplifire (Chord and Tab)

Judul : Black Amplifire
Artist: The S.I.G.I.T
Tabbed by: Blex

Melody
e|------------------------------------------------|
B|------7-5---5-----------5-----7-5---5-----------|
G|--4-4-----4---7-4-4-4h7---4-4-----4---7-4-4-9-7-|
D|--------------------------------------------9-7-|
A|--------------------------------------------7-5-|
E|------------------------------------------------|

e|----------------------------------------------------|
B|------7-5---5-----------5-----7-5---5---------------|
G|--4-4-----4---7-4-4-4h7---4-4-----4---7-4-4-9-7-7---|
D|--------------------------------------------9-7-7-9-|
A|--------------------------------------------7-5-5-9-|
E|--------------------------------------------------7-|

Intro:

Melody B5 (F#  5E  D5)

B5 F# E5 D5 E5 D5 4x

Verse 1:

B5                          D5  E5
They don’t give you a right

B5                           D5  E5
They just giving you a fight

B5                                 D5  E5
As you hold on to the bright light

B5                                   D5  E5
Shall He send you the might to night


G5   A5   A#  B5

           Chorus:

B5   F#   E5   D5   E5   D5
Black amplifier

B5   F#   E5   D5   E5   D5
Black provocateur

B5   F#   E5   D5   E5   D5
Black amplifier

B5   F#   E5   D5   E5   D5
Black anglo fire




            Back To Verse 1

Melody(Coming soon) (B5)

B5  F#  E5  D5  A5  B5    3x

A5  D5  E5  F#

       

B5 A5 B5 A5 B A5 B5 A5 B5  
G5  A5  A#  B5 2x

            
Back To Chorus

E5  D5  A5  B5

Postingan terkait:

Belum ada tanggapan untuk "The SIGIT - Black Amplifire (Chord and Tab)"

Post a Comment