Rosemary - Sabtu malam (Chord and Tab)

Rosemary - Sabtu malam (Chord and Tab)
Judul :Sabtu malam
Artist:Rosemary
Tabbed by:Blex

Intro:A5 C# F# E5 A5 B5 C# D5 2x

A5 C#  F# 
Sabtu malam di rumah sendiri. 
E5
sepi menemani
A5 B5 C# D5
malam tersuntuk untuk di lalui
A5 C# F# E5
acara TV tayangkan kisah cinta remaja 
A5 B5 C# 
taakan masuk dengan seorang yang
D5
patah hati

Interlude: A5 C# F# E5 A5 B5 C# D5

A5 C# F#
Ku mencoba melupakan kisah sedih 
E5
dihari ini 
A5 B5
rasa gundah
C# D5
yang ku alami
A5 C# F#
ku ambil papan beroda dan ku ayuhkan 
E5
dengan kaki 
A5 B5 C# D5
berulang kali dan tak henti-henti
[***]
BM          D5
Temui tante tetangga sebelah
A5          E5
kata orang dia punya obatnya
C#          D5
setengah tua aku tak perduli
E5     D5    E5             D5      A5
segera pergi dan tinggalkan masalah di bumi

Intro:A5 C# F# E5
A5 C# F# E5 A5 B5 C# D5

e|-----------------------------------10-8-7-8-7----------------------|
B|------7-9-9-10-9h10-9-----9h10-9--------------10-8-7-8-7---7-----7-|
G|--7-9-----------------9-6--------9-----------------------8---7-8---|2x
D|-------------------------------------------------------------------|
A|-------------------------------------------------------------------|
E|-------------------------------------------------------------------|

e|------------------------10-7----10-7----10-7----10-7----10-7----|
B|---------7---------7-10------11------11------11------11------11-|
G|-7-7-7h9---7-7-7h9----------------------------------------------|
D|----------------------------------------------------------------|
A|----------------------------------------------------------------|
E|----------------------------------------------------------------|

e|-12-10----12-10----12-10----12-10----12-|
B|-------13-------13-------13-------13----|
G|----------------------------------------|
D|----------------------------------------|
A|----------------------------------------|
E|----------------------------------------|

Back To reff (***)


Postingan terkait:

2 Tanggapan untuk "Rosemary - Sabtu malam (Chord and Tab)"