Rosemary - Punk Rock Show (Chord and Tab)

Rosemary - Punk Rock Show (Chord and Tab)

Judul    : Punk Rock Show
Artist   : Rosemary
Tabbed by: Andry
(Revisi)

Intro1 :

Bm A5 G5 A5 2x F#

Intro2 :

e|-----------------------|
B|--7/8-7--5-5-3-3-5-5-7-|
G|-----------------------|1X
D|-----------------------|
A|-----------------------|
E|-----------------------|
Bm A G A 2X
e|--------5---2-2/3-2-------|
B|----3-5---5---------5-3---|
G|--4---------------------6-|4X
D|--------------------------|
A|--------------------------|
E|--------------------------|

Bm    A         G                A
wore corupption disaster and the violence
Bm                    A              G       A
Thats all that we have seen daily on TV yeah yeah
Bm        A        G              A
destinate wine the crying for the looser
Bm                     A             G         A
Thats all that we have hear daily on radio owh yeah


[#]:
Bm                                   F#
I think it thats enough for me
                                Em
And Its okay with you
              F#
 But i cant guarantee , here..
      F#
don't make you have it all



[reff]:

Fig3
       [3X] LANJUT KE =è[1]
e|----------------|----------------|
B|--7-7-5-5-3-3---|10-10-8-8-6-6---|
G|--------------4-|--------------7-|
D|----------------|----------------|
A|----------------|----------------|
E|----------------|----------------|


Bm                  A              
we need the punk rock show
G                   A
we need the punk rock show
Bm                  A         
we need the punk rock show
G                   A
we need the punk rock show for you                  


[interlude]:

e|-----------------------------|------------------------|
B|----7-7-7-7-7-7--7/8-7-5-3-2-|---7-7-7-7-7-7--5--3--2-|
G|--4--------------------------|-4----------------------|
D|-----------------------------|------------------------|
A|-----------------------------|------------------------|
E|-----------------------------|------------------------|

e|-----------------------------|
B|----7-7-7-7-7-7--7/8-7-5-3-2-|
G|--4--------------------------|[2]X
D|-----------------------------|
A|-----------------------------|
E|-----------------------------|

e|--------5---2-2/3-2-------|
B|----3-5---5---------5-3---|
G|--4---------------------6-|4X
D|--------------------------|
A|--------------------------|
E|--------------------------|


[#]:
Bm                                   F#
I think it thats enough for me
                                Em
And Its okay with you
              F#
But i cant guarantee , here..
      F#
don't make you have it all


[reff]:

Fig3
       [3X] LANJUT KE =è[1]
e|----------------|----------------|
B|--7-7-5-5-3-3---|10-10-8-8-6-6---|
G|--------------4-|--------------7-|
D|----------------|----------------|
A|----------------|----------------|
E|----------------|----------------|




Bm                  A              
we need the punk rock show
G                   A
we need the punk rock show
Bm                  A         
we need the punk rock show
G                   A
we need the punk rock show


Bm                  A              
we need the punk rock show
G                   A
we need the punk rock show
Bm                  A         
we need the punk rock show
G                   A
we need the punk rock show for you   

[Interlude]:

e|----------------|
B|--7-7-5-5-3-3---|
G|--------------4-|[8]x
D|----------------|
A|----------------|
E|----------------|

[reff]:

Fig3
       [3X] LANJUT KE =è[1]
e|----------------|----------------|
B|--7-7-5-5-3-3---|10-10-8-8-6-6---|
G|--------------4-|--------------7-|
D|----------------|----------------|
A|----------------|----------------|
E|----------------|----------------|

Bm                  A              
we need the punk rock show
G                   A
we need the punk rock show
Bm                  A         
we need the punk rock show
G                   A
we need the punk rock show


Bm                  A              
we need the punk rock show
G                   A
we need the punk rock show
Bm                  A         
we need the punk rock show
G                   A
we need the punk rock show for you   




               

Postingan terkait:

Belum ada tanggapan untuk "Rosemary - Punk Rock Show (Chord and Tab)"

Post a Comment