Virgoun - Surat Cinta Untuk Starla (Chord and Tab)

Virgoun - Surat Cinta Untuk Starla (Chord and Tab)

Judul    : Surat Cinta Untuk Starla
Artist   : Virgoun
Tabbed by: Blex

Fig1
e|------------------------------------------|
B|--4-5-5h7-5-4---4-5-4-------7-5-4---4-5-4-|
G|--------------6-------4-6-4-------6-------|
D|------------------------------------------|
A|------------------------------------------|
E|------------------------------------------|

e|------4---------------------------------------4-------------|
B|--------7-5-4---4-5-5h7-5-4-------4-4h5-5-4-5---7-------5-4-|
G|--6-4---------6-------------6-4-6-----------------6-3-4-----|
D|------------------------------------------------------------|
A|------------------------------------------------------------|
E|------------------------------------------------------------|

Fig2
e|-------------7-----------------------------------7---------7------|
B|------8-10-8---10-8-7-8-10----------------7-8-10---10-8-10---10-9-|
G|--7h9----------------------7-----7-9--7-9-------------------------|
D|-----------------------------7h9----------------------------------|
A|------------------------------------------------------------------|
E|------------------------------------------------------------------|

Intro :
Fig1
E F# B G#m E F# B B7
E F# B G#m E F# B

B             E
Kutuliskan kenangan tentang
  F#                 B
Caraku menemukan dirimu
G#m                  C#m
Tentang apa yang membuatku mudah
F#                B
Berikan hatiku padamu


B                E
Takkan habis sejuta lagu
       F#               B
Untuk menceritakan cantikmu
G#m               C#m
Kan teramat panjang puisi
     F#               B
Tuk menyuratkan cinta ini


            E          F#
Telah habis sudah cinta ini
           B     F#         G#
Tak lagi tersisa untuk dunia
             C#m
Karena tlah kuhabiskan
            F            B E B E  
Sisa cintaku hanya untukmu



B                E
Aku pernah berpikir tentang
        F#           B
Hidupku tanpa ada dirimu
G#m                 C#m
Dapatkah lebih indah dari
       F#           B
Yang kujalani sampai kini


B              E
Aku slalu bermimpi tentang
      F#            B
Indah hari tua bersamamu
G#m                    C#m
Tetap cantik rambut panjangmu
     F#m                   B
Meskipun nanti tak hitam lagi


           E            F#
Bila habis sudah waktu ini
           B      F#     G#
Tak lagi berpijak pada dunia
          C#m
Telah aku habiskan
         F#            E
Sisa hidupku hanya untukmu


               E          F#
Dan tlah habis sudah cinta ini
             B    F#      G#
Tak lagi tersisa untuk dunia
           C#m
Karena tlah kuhabiskan
       F#               E
Sisa cintaku hanya untukmu

Fig2

B
Hidupku
            C#m  F# G#
Hidup dan matiku


            C#    F#
Bila musim berganti
G#              C#-G#-
Sampai waktu terhenti
A#m                 D#m
Walau dunia membenci
G#              C#
Ku kan tetap disini


            F#           G#
Bila habis sudah waktu ini
           C#     G#       A#
Tak lagi berpijak pada dunia
             D#m
Telah aku habiskan
       G#             C#
Sisa hidupku hanya untukmu


           F#           G#
Tlah habis sudah cinta ini
            C#     G#      A#
Tak lagi tersisa untuk dunia
               D#m
Karena tlah kuhabiskan
       G#            C#
Sisa cintaku hanya untukmu


A#               D#m
Karena tlah kuhabiskan
      G#           F# 
sisa cintaku hanya untukmu

Outro : F# G# C# A#m F# G# C#


Postingan terkait:

4 Tanggapan untuk "Virgoun - Surat Cinta Untuk Starla (Chord and Tab)"