NTRL - Cinta Gila (Chord and Tab)


Judul    : Cinta Gila
Artist   : NTRL
Album    : 9th
Tabbed by: Blex


Fig1
e|----------------------------------------------|
B|----------------------------------------------|
G|----------------------------------------------|
D|----7---6---4---2---2h4---7---6---4---2---2h4-|
A|--0---0---0---0---0-----0---0---0---0---0-----|
E|----------------------------------------------|

Fig2
e|----------------------------------------------|
B|----------------------------------------------|
G|----7---6---4---2---2h4---7---6---4---2---2h4-|
D|--0---0---0---0---0-----0---0---0---0---0-----|
A|----------------------------------------------|
E|----------------------------------------------|

Intro:
A5
Fig1
D5
Fig2

A5
Melesat menuju langit tujuh
A5                          D5
Secepat kilat menembus angkasa

A5
Jauh kutinggalkan planet bumi
A5                             D5
Terbang melayang melanglang buana

F#m      E5         D5
Racun cinta membius hamba
F#m       E5         D5
Panas dingin demam asmara

Reff:
A5
Fig1
Cinta memang gila tak kenal permisi
D5
Fig2
Bila disengatnya say no to kompromi

A5
Fig1
Cinta memang gila tak kenal permisi
D5

Fig2
Bila disengatnya say no to kompromi

A5

A5
Ku tak kuasa ku tak berdaya
A5                           D5
Si kerbau bego dicucuk hidungnya

F#m      E5          D5
Racun cinta membius hamba
F#m      E5          D5
Panas dingin demam asmara

Back To Reff

Postingan terkait:

Belum ada tanggapan untuk "NTRL - Cinta Gila (Chord and Tab)"

Post a Comment