Last Chiil - Memories Of You (Chord and Tab)

Last Chiil - Memories Of  You (Chord and Tab)

Judul    : Memories Of You
Artist   : Last Child
Tabbed by: Blex

Fig1
e|-------------------------------------------------------------|
B|-------------------------------------------------------------|
G|-------------------------------9-9-9--9-9-9------------------|
D|------7-5-4-----7-5-4-5-5-5-5--9------9----------------------|
A|--5-5-------5-5-------5-5-5-5--7------7----------4-5-7-5-4-5-|
E|----------------------3-3-3-3----------------5-7-------------|

Fig2
e|-----------------------------------------------------------|
B|-----------------------------------------------------------|
G|-----------------------------------------------------------|
D|--7-4-5-7-4-5-7-5-4-5---4-5---4-5---4-7-5-4-5-4---4--------|
A|----------------------7-----7-----7-------------7----------|
E|-----------------------------------------------------------|

e|-----------------------------------------------------------|
B|-----------------------------------------------------------|
G|-----------------------------------------------------------|
D|--7-4-5-7-4-5-7-5-4-5---4-5---4-5---4-7-7-5-5-4-4-2-2------|
A|----------------------7-----7-----7------------------------|
E|-----------------------------------------------------------|

Intro:
Fig1(2x)
D5 G5 E5 A5 (2x)

D5                 G5
I see the childist part of me
     E5               A5
When I start losing my mine of You
    D5           G5
And I try to runaway from You
   E5                     A5
To hit back what You have done to me

Bridge:
    G5          A5            D5
And someday You will know the truth
    G           A            D
You see me walk with someone new
      G5         A5       D5         Bm
Seems like Yesterday when You get to hurt me
        G5
Make me dying 
            A5                            D5
With all my loneliness who try to killing me

Reff/Chorus(1):  
          D5                         G5
I still remember all the memories between You and me
     E5                           A5
I do every crazy thing it just to make You happy
    F#                             Bm    
But know I'm not afraid to hurt by someone else
        G5              A5                                D5
And I'm laughing if I remember learn to smoking when your gone

Interlude:
Fig1(2x)

D5 G5 E5 A5 (2x)


D5               G5
I never guess to be like this
     E5                  A5
Feel nasty when You give me a kiss
    D5                G5
And I brake my world around of You
     E5                 A5
From deeply I wanna said F**k You

Repeat:
Bridge, Chorus(1)

Melody/Interlude:
Fig2
D5 G5 E5 A5 (2x)

Repeat:
Bridge,Chorus(2):  
          D5                         G5
I still remember all the memories between You and me
     E5                           A5
I do every crazy thing it just to make You happy
    F#                             Bm    
But know I'm not afraid to hurt by someone else
        G5              A5 
And I'm laughing if I remember learn remember

Repeat:
Chorus(1)

Outro:
Fig1
D5 G5 E5 A5 D5

Postingan terkait:

Belum ada tanggapan untuk "Last Chiil - Memories Of You (Chord and Tab)"

Post a Comment