Endank Soekamti Ft Kemal Palevi - Luar Biasa (Chord and Tab)

Endank Soekamti Ft Kemal Palevi - Luar Biasa (Chord and Tab)

Judul    : Luar Biasa
Artist   : Endank Soekamti Ft Kemal Palevi
Album    : Kolaborasoe
Tabbed by: Blex

Fig1
e|------------------------------------|
B|--5-5--------------------------5-8--|
G|------7-7-5--------5--5-7--5-7------|
D|------------7--5h7------------------|
A|------------------------------------|
E|------------------------------------|
Fig2
e|------------------------------------|
B|--5-5-------------------------------|
G|------7-7-5--------5-7-5-4-5-4------|
D|------------7—-5h7-------------7----|
A|------------------------------------|
E|------------------------------------|

Fig3
e|-------------------------------------------|
B|--12-12-10-10-8--------8--8-10-8-10-12-15--|
G|----------------9--7h9---------------------|
D|-------------------------------------------|
A|-------------------------------------------|
E|-------------------------------------------|

Fig4
e|-------------------------------------------|
B|--12-12-10-10-8--------8-10-8-7-8-7--------|
G|----------------9--7h9--------------9------|
D|-------------------------------------------|
A|-------------------------------------------|
E|-------------------------------------------|

Intro :
Fig1
Am F G C
Fig2
Am F G Am

Dm        G            C
Dulu aku seorang loser
Dm        G            C
Tapi kini ku punya power yeah
Dm        G            C
Dulu aku dipandang sebelah mata
Dm        G            C
Tapi kini ku sang juara

F        G          Em       Am
Ku tak biasa, biasa saja
F         G         C
Biasa saja, ku tak suka
F        G          Em       Am
Dulu biasa, biasa saja
Dm     G        C
Kini aku luar biasa

Intro :
Fig1
Am F G C
Fig2
Am F G Am


Dm        G            C

Buat apa uang segudang (Syalalala Syalalala)
Dm        G            C
Kalo otak seperti udang (Syalalala Syalalala)
Dm        G            C
Buat apa tampang rupawan (Syalalala Syalalala)
Dm        G            C
Kalo cuma jadi pecundang YEAH !!
F        G          Em       Am
Ku tak biasa, biasa saja
F         G         C
Biasa saja, ku tak suka
F        G          Em       Am
Dulu biasa, biasa saja
Dm           G
Tak biasa, biasa
Dm           G
Tak biasa, biasa
Dm           G                  G#    G-G#-G
Memang aku luar biasa Ouwoo

Intro :
Fig1
Am F G C
Fig2
Am F G Am      
Fig3         
Em C D G
Fig4

Em C D Em

Dm        G            C
Bagai rockstar yang mempesona
Dm        G            C
Semua orang tergila-gila (Come on Palevi)
Dm        G            C
Bagai pahlawan yang perkasa
Dm        G            C
Mental kuat seperti baja
F        G          Em       Am
Ku tak biasa, biasa saja
F         G         C
Biasa saja, ku tak suka
F        G          Em       Am
Dulu biasa, biasa saja
Dm     G        F
Kini aku luar biasa
F        G          Em       Am
Ku tak biasa, biasa saja
F         G         C
Biasa saja, ku tak suka
F        G          Em       Am
Dulu biasa, biasa saja
Dm           G
Tak biasa, biasa
Dm           G
Tak biasa, biasa
Dm           G                  G#    G-G#-G
Memang aku luar biasa Ouwoo



Postingan terkait:

8 Tanggapan untuk "Endank Soekamti Ft Kemal Palevi - Luar Biasa (Chord and Tab)"