Superman Is Dead - Sunset Di Tanah Anarki (Chord and Tab)

Superman Is Dead - Sunset Di Tanah Anarki (Chord and Tab)

Sunset Di Tanah Anarki

[Intro]

        G*                      C*                 D*
e|--------------------|---------------------|------2------|
B|--------------------|------1--------------|--------3----|
G|------0---0---0-----|--------0------------|----2--------|
D|--------0---0---0---|----2----------------|--0----------|
A|----2---------------|--3------------------|-------------|
E|--3-----------------|---------------------|-------------|

G* 4X
        C*              D*      G*              C*      D*      G*
Andaiku malaikat, kupotong sayapku dan rasakan perih di dunia bersamamu
(G*)          C*        D*      G*              C*      D*
Perang kan berakhir, cinta kan abadi, di tanah anarki romansa terjadi


[Verse 1]

 G
(G)             C              D              G     
Desing peluru tak bertuan, hari-hari yang tak benderang
Em              C      D              G
Setiap detik nyawa ini kupertahankan untukmu
(G)           C                D              G     
Alasanku ada di sini, dan parasmu yang kurindukan
F#-Em              C         D         G
Di neraka kan kumenangkan, hariku bersamamu


[Chorus]

(G)        C        D        G          Em       C        D      G
Andaiku malaikat, kupotong sayapku dan rasakan perih di dunia bersamamu
(G)           C        D        G         Em     C       D      G
Perang kan berakhir, cinta kan abadi, di tanah anarki romansa terjadi


[Verse 2]

(G)             C            D              G
Dalam gelisahku menunggu, berita tentang gerilyamu
Em              C      D              G
Semerbak rindu kuasai udara panas ini
(G)             C            D                 G
Sepucuk surat telah tiba, dan senja pun ikut berdebar
F#-Em              C                D         G
Kalimat indah dan kisahmu tentang perang dan cinta


Back to Chorus


[Solo]

Solo Chords: C D G Em C D G
             C D G F# Em

e|--------------------------------------------------------------------------------------|
B|--------------------------------------------------------------------------------------|
G|-5-4-2---------2-5-4-2----------------4-2------------------2--------------------------|
D|-------2-3---3---------5-3-3-/5---2-5-----5-3-2-2-/3-----3---5-5-5-3-2-2--2-2-3-3-/5--|
A|-------------------------------------------------------5------------------------------|
E|--------------------------------------------------------------------------------------|

e|-----5---------7-5---5-7-8-7--7-10-10---|
B|-8-8---8-5------------------------------|
G|-----------7-5--------------------------|
D|----------------------------------------|
A|----------------------------------------|
E|----------------------------------------|


[Interlude]

        G*                      C*                   D*                 G**                    
e|--------------------|---------------------|------2---2---2---|--------------------|
B|--------------------|------1---1---1------|--------3---3---3-|--------------------|
G|------0---0---0-----|--------0---0---0----|----2-------------|--------0-----------|
D|--------0---0---0---|----2----------------|--0---------------|------0---0---------|
A|----2---------------|--3------------------|------------------|----2---------------|
E|--3-----------------|---------------------|------------------|--3-----------------|

        C**                  D**
e|---------------------|--------2---------|
B|--------1------------|------3---3-------|
G|------0---0----------|----2-------2-----|
D|----2-------2--------|--0---------------|
A|--3------------------|------------------|
E|---------------------|------------------|

C               D      G*2x
Kubasuh luka dengan air mata
(G*)     C*      D*            G*2x
Oh hatimu beku, serta jiwamu yang lelah
(G*)              C*        D*                  G*2x
Tak henti lawan dunia dengan mimpi besar untuk cinta
(G*)             C**      D**        G**      F#    Em
Dan jalanmu tuk pulang, di ujung waktu kan ada cahaya
C               D         G
Itulah aku, raihlah mimpimu

Back to Chorus 2X


[Outro]

Outro Chord: C D G F# Em

e|-------------------------------------|
B|-------------------------------------|
G|-5-4-2---------2-5-4-2----------4--2-|
D|-------2-3---3---------5-3-3-/5------|
A|-------------------------------------|
E|-------------------------------------|


C               D      G*
Itulah aku, raihlah mimpimu




Postingan terkait:

Belum ada tanggapan untuk "Superman Is Dead - Sunset Di Tanah Anarki (Chord and Tab)"

Post a Comment