Superman Is Dead - Saint Of MyLife (Chord and Tab)

Superman Is Dead - Saint Of MyLife (Chord and Tab)

Judul    : Saint Of MyLife
Artist   : Superman Is Dead
Album    : Angel&Outsider
Tabbed by: Andry

Fig1
e|-------------------------------------------------------------|
B|----8----8---8--10-12-10--10-12-13--12-13-12-10-13-12-13-12--|
G|--7----7---7-------------------------------------------------|
D|-------------------------------------------------------------|
A|-------------------------------------------------------------|
E|-------------------------------------------------------------|

e|-------------------------------------------------------------|
B|----8---8---8---8---8-10-12-10----10-------------------------|
G|--7---7---7---7---7------------11----11-9-11-9--4-5-4--------|
D|------------------------------------------------------5-7-5--|
A|-------------------------------------------------------------|
E|-------------------------------------------------------------|

Fig2
e|-------------------------------------------------------------|
B|-------8-----------8---10----8-----7-------------------------|
G|--7--9---9-7--7--9---9-----9---9-7---7---7---9-7---7---------|
D|---------------------------------------9---9-----9-----------|
A|-------------------------------------------------------------|
E|-------------------------------------------------------------|


e|-------------------------------------------------------------|
B|--12--10-9------12--10-9---------8-----10--------------------|
G|-----------9-7-----------9-11--9---9-11---11---7---9-7-------|
D|---------------------------------------------9---9-----9-----|
A|-------------------------------------------------------------|
E|-------------------------------------------------------------|

intro:
G D C D G
(Fig1)

G
good night good night my little angel
D
good night good night my little ones
C
spread your wings and
D G
fly away to your dreams

G
when you’re sleep, i’m on your side
D
when you’re awake, i’ll be your still
C D G
close your eyes put a smile on your face

reff: 
E
don’t be scared cause
C G D
i’ll be there to hold you tight
E C
you’re the king you’re the queen
G D
you’re the saint of my life
E C G D
when the world is trembling down don’t you cry
E C
cause there’s nothing nothing
G D
that will keep us a part
C B
aaa aaa aaaaa

G
sing with me my little darling
D
sing along to this lullabies
C D
take the moon kiss the stars G
so goodnight

intro:
G D C D G
(Fig2)

G
good night good night my little angel
D
good night good night my little ones
C
spread your wings and
D G
fly away to your dreams

G
when you’re sleep, i’m on your side
D
when you’re awake, i’ll be your still
C D G
close your eyes put a smile on your face

reff: 
E
don’t be scared cause
C G D
i’ll be there to hold you tight
E C
you’re the king you’re the queen
G D
you’re the saint of my life
E C G D
when the world is trembling down don’t you cry
E C
cause there’s nothing nothing
G D
that will keep us a part
C B
aaa aaa aaaaa





Postingan terkait:

Belum ada tanggapan untuk "Superman Is Dead - Saint Of MyLife (Chord and Tab)"

Post a Comment