Superman Is Dead - Kita vs Mereka (Chord and Tab)

 Superman Is Dead - Kita vs Mereka (Chord and Tab)




Judul      : Kita vs Mereka
Artis      : Superman Is Dead
Album      : Black market love
Tab oleh   : yoos


Fig1
e|-9------9------9------10-9--------9------9------------------|
B|---10-----10-----10--------12-10----10-----10---/12-10-9-10-|
G|------9------9------9------------------9------9-------------|
D|------------------------------------------------------------|
A|------------------------------------------------------------|
E|------------------------------------------------------------|

e|-------9-9--------------9-9-9-12-12-10-10--9-9------------------------------------|
B|-10-12-----12-12--10-12------------------------12-12-10-10-9-/12-10-9-10--/12-10~-|
G|----------------------------------------------------------------------------------|
D|----------------------------------------------------------------------------------|
A|----------------------------------------------------------------------------------|
E|----------------------------------------------------------------------------------|

    A5         E5        A5         D5
Hey kau yang terluka karna engkau berbeda
    A5         E5         F#5        D5
Jangan pernah menyerah hancur…kan kesedihan
    A5         E5   A5         D5
Kita kan bersama, ayo lawan dunia
A5         E5   F#5        D5
Injak kesombongan dan keangkuhannya…

A5 E5 D5

A5              E5         D5         A5   E5
Kita bukan mereka Kita bukan anak bangsa sempurna
A5              E5         D5         A5         E5
Kita bukan bangsawan nan rupawan, yang harus dihor…
    D5         A5         E5   D5         A5
Matilah keseragaman, kedangkalan hidup di dunia
          D5              A5
Jarum dan tinta, kulit berwarna
    E5                         E5 D5 C#5
Buktikan kubisa, akan kurubah dunia

A5              E5   D5         A5         E5
Kita slalu ditekan dilupakan, tersudut dan terdiam
A5              E5   D5              A5   E5
Orang-orang memuja pemikiran sempit nan membosankanku
D5         A5         E5   D5         A5
Ku akan teriak, hingga kaca pecah terserak
          D5              A5
Kuangkat gelas, kita nyanyikan
    E5                         E5 D5 C#5
Lagu perlawanan kita versus mereka!

C#5        D5 E5 D5
Kenapa kita…
C#5        D5 E5 D5
mesti seragam…
C#5        D5        E5                              E5 D5 C#5
Mungkinkah kita… hidup saling jaga… walaupun berbeda!

Fig1
A5 E5 A5 D5 A5 E5 F#5 D5


Postingan terkait:

Belum ada tanggapan untuk " Superman Is Dead - Kita vs Mereka (Chord and Tab)"

Post a Comment