Superman Is Dead - Cerita Semalam (Chord and Tab)

Superman Is Dead - Cerita Semalam (Chord and Tab)

Judul       : Cerita Semalam
Artis       : Superman Is Dead

Album       : Kuta Rock city
Tab oleh    : yoos

Fig1
e|------------------------------------------|
B|-----5h6p5--------------------6-5-3h5p3---|
G|-5-5----------4-5-7-----4h5p4-------------|
D|-----------5--------7-7-------------------|
A|------------------------------------------|
E|------------------------------------------|

e|--------------------------------------------|
B|-----5h6p5----------------------------------|
G|-5-5---------4-5-7--------------------------|
D|-----------5-------7-7-7-7-7-7-3-3-3---5-5--|
A|-------------------7-7-7-7-7-7-3-3-3---5-5--|
E|-------------------5-5-5-5-5-5-1-1-1---3-3--|

Fig2
e|----------------------------------------------------|
B|-------5h6p5-------5h6p5-------5h6p5-7-7-7-5h6p5----|
G|-5-5-5-------5-5-5-------5-5-5-------------------5--|
D|----------------------------------------------------|
A|----------------------------------------------------|
E|----------------------------------------------------|

Fig3
e|-------------------|
B|----------6-5------|
G|-5-5-5--5-----7-5--|
D|-------------------|
A|-------------------|
E|-------------------|

Fig4
e|----------------------------------|
B|-----5-------5-------6-------3----|
G|---5---5---5---5---7---7---4---4--|
D|---------3------------------------|
A|-3---------------5----------------|
E|-------------------------3--------|

Fig5
e|--------------------------------------------------|
B|--------------------------------------------------|
G|-----5-----5-----------------7-----7--------------|
D|-----------------3-----3-----------------5-----5--|
A|-3-3---3-3---------------5-5---5-5----------------|
E|-------------1-1---1-1---------------3-3---3-3----|


Tab1 2X
C5 A5 C5 A5 F5 G5
C5 G5 A5 F5 C5 G5 A5 F5 G5


C5          F5          D5                G5

Bangun di siang hari merasa bosan dan tak peduli
C5          F5                D5                G5
Lelah habiskan malam kencani bintang yang tak pernah sepi
C5                F5                D5          G5
Dan radio kau bernyanyi tuk indahnya dunia ini
C5    F5          D5          G5
Rutinitasku memanggil lewati bosannya hari

Tab1
C5 G5 A5 F5 C5 G5 A5 F5 G5

C5          F5                D5          G5
Sudah jam 7 malam saat yang tepat pestakan kumulai
C5          F5          D5                      G5
Liar dan penuh dengan pikiran kotor yang tak terkendali
C5                F5                D5          G5
Dan radio kau bernyanyi tuk indahnya dunia ini
C5    F5          D5          G5
Aku harus memanggil kini tak perlu cemas

C5    F5          D5                G5
Kesenangan malam ini hanya tuk sembuhkan diri
C5          F5          D5    G5
yang terluka oleh dunia yang teramat palsu
C5    F5          D5          G5
Kemanapun kumelihat ada jiwa yang tersesat
C5          F5          D5    G5
mawar merah yang terinjak tlah membakarku

Fig2 2x
C5 F5 D5 G5 C5 F5 D5 G5

C5          F5          D5                G5
Lipstik dan luka ini membekas liar hiasi tubuhnya
C5          F5          D5                G5
Juga wanita cantik bermake-up tebal kukecup bibirnya
C5          F5          D5          G5
Kumenangis dan tertawa apa yang telah kulakukan
C5    F5          D5    G5
Bicara tentang cinta oh haruskah

C5    F5          D5                G5
Kesenangan malam ini hanya tuk sembuhkan diri
C5          F5          D5    G5
yang terluka oleh dunia yang teramat palsu
C5    F5          D5          G5
Kemanapun kumelihat ada jiwa yang tersesat
C5          F5          D5    G5
mawar merah yang terinjak tlah membakarku

C5 F5 D5 G5 C5
Fig2 2x
Fig3 3x

Fig4                                C5 F5 D5 G5
Kadang ku mencoba tegar menghadapi
Fig5                          C5 F5 D5 G5
Bodohnya dunia masyarakat kita
                 C5 F5 D5 G5
Dan semuanya gila


Postingan terkait:

Belum ada tanggapan untuk "Superman Is Dead - Cerita Semalam (Chord and Tab)"

Post a Comment