Superman Is Dead - Bulan & Ksatria (Chord and Tab)


Judul : Bulan Dan Ksatria
Artist: Superman Is Dead
Tabbed by : andry

Intro:

Am Dm E Am 2x
e|-----------------------------------------------|
B|-----------------------------------------------|
G|-----------------------------------------------|
D|-----------------------------------------------|2x
A|----------5-7-8-7-5-7--5-------5-----5-7-5-----|
E|--5-5-5-8----------------8-7-8---7-8-------8-5-|
                                                         
A5
Jejak dendam perih meraksasa di angkasa
                                    E5
Akan cinta yang besar dan terhalang durjana
E5
Manusia melacurkan diri di istana
                          A5
Namun tak demikian dengan Bulan Ksatria

A5
Kekuatan cinta kan beri dia mahkota
                          E5
Bulan merana jingga hapus air matamu
E5
Ksatria datang dengan bendera tanpa pedang
                          A5
Di detik ini cinta adalah kebenaran

D5                      A5
Tinggi menjulang, menembus peradaban
E5                      A5
Melewati waktu melawan pembenaran
D5                        A5
Dan kini Bulan menantikan gemilang
E5                       A5
Tangis, air matanya tlah hilang

Interlude: A5

A5
Derap kuda Ksatria gagah dekati surga
                          E5
Walau neraka berjanji tuk menghabisinya
E5
Di pintu istana Bulan merajah hatinya
                               A5
Tuk tinggalkan raja, hakim dan khianat semesta

A5
Kekuatan cinta kan beri dia mahkota
                          E5
Bulan merana jingga hapus air matamu
E5
Ksatria datang dengan bendera tanpa pedang
                    A5
Di detik ini cinta adalah kebenaran


D5                      A5
Tinggi menjulang, menembus peradaban
E5                      A5
Melewati waktu melawan pembenaran
D5                        A5
Dan kini Bulan menantikan gemilang
E5                       A5
Tangis, air matanya tlah hilang

Interlude:

Am Dm E Am 2x
e|-----------------------------------------------|
B|-----------------------------------------------|
G|-----------------------------------------------|
D|-----------------------------------------------|2x
A|----------5-7-8-7-5-7--5-------5-----5-7-5-----|
E|--5-5-5-8----------------8-7-8---7-8-------8-5-|

D5     A5
Menuju kemenangan
D5         A5
dan cinta dikumandangkan
D5     A5
Menuju kata hati
E5
dan terbakarlah semua kebencian

Interlude: A5 E5 2X

Bass Tab1
e|----------------------------------------|
B|----------------------------------------|
G|----------------------------------------|
D|----------------------------------------|
A|----------------------------------------|
E|--5-5-5-5-0-5-5-5-5-0-5-5-5-5-0-5-5-5-5-|

Bss Tab2
e|----------------------------------------|
B|----------------------------------------|
G|----------------------------------------|
D|----------------------------------------|
A|--7-7-7-7---7-7-7-7---7-7-7-7--7--------|
E|----------5---------5---------5---------|

Bass Tab1
A5
Jejak dendam perih meraksasa di angkasa
                                    E5
Akan cinta yang besar dan terhalang durjana
Bass Tab2
E5
Manusia melacurkan diri di istana
                          A5
Namun tak demikian dengan Bulan Ksatria


A5
Derap kuda Ksatria gagah dekati surga
                          E5
Walau neraka berjanji tuk menghabisinya
E5
Di pintu istana Bulan merajah hatinya
                               A5
Tuk tinggalkan raja, hakim dan khianat semesta


D5                      A5
Tinggi menjulang, menembus peradaban
E5                      A5
Melewati waktu melawan pembenaran
D5                        A5
Dan kini Bulan menantikan gemilang
E5                       A5
Tangis, air matanya tlah hilang

D5                      A5
Tinggi menjulang, menembus peradaban
E5                      A5
Melewati waktu melawan pembenaran
D5                        A5
Dan kini Bulan menantikan gemilang
E5                       A5
Tangis, air matanya tlah hilang

Na na nanananana nanana nananana








Postingan terkait:

14 Tanggapan untuk "Superman Is Dead - Bulan & Ksatria (Chord and Tab)"