Rosemary feat Gania - Super Girl (Chord and Tab)


Song title   : Supergirl
Artist       : Rosemary Feat Gania
Tabbed by    : yoos

Fig1
e|---------------------------------------------------------------------|
B|---------------------------------------------------------------------|
G|--5---5---5-5-5-3---5---6---6-6-6-5---5---5-5-5-8---6---5---5-5-5----|
D|---------------------------------------------------------------------|
A|--3---3---3-3-3-1---3---4---4-4-4-3---3---3-3-3-6---4---3---3-3-3----|
E|---------------------------------------------------------------------|

e|---------------------------------------------------------------------|
B|---------------------------------------------------------------------|
G|--5---5---5-5-5-3---5---6---6-6-6-5---5---5-5-5-8---8-8-8-8-8-8-8----|
D|---------------------------------------------------------------------|
A|--3---3---3-3-3-1---3---4---4-4-4-3---3---3-3-3-6---6-6-6-6-6-6-6----|
E|---------------------------------------------------------------------|

Fig2
e|---------------------------------------------------------------------|
B|---------------------------------------------------------------------|
G|---------------------------------------------------------------------|
D|--6---6---6-6-6-5---6---8---8-8-8-8/10-10---10-10-10-8---10---11-----|
A|---------------------------------------------------------------------|
E|--4---4---4-4-4-3---4---6---6-6-6-6/8--8----8--8--8--6---8----9------|

e|----------------------------------------------------------------------|
B|---------------------------------9------------------------------------|
G|--10-11-10-----------10-11-10-----------------------------------------|
D|-----------11-----------------11-------10-11---10---8------8---10---8-|
A|--------------11--------------------------------------11--------------|
E|----------------------------------------------------------------------|

e|----------------------------------------------------------------------|
B|--------------/14--13-13---16-13-14-13-16-13-14-13--------------------|
G|--/10--8-8-----------------------------------------15b17---13---------|
D|----------------------------------------------------------------------|
A|----------------------------------------------------------------------|
E|----------------------------------------------------------------------|

e|----------------------------------------------------------------------|
B|----------------------------------------------------------------------|
G|----------------------------------------------------------------------|
D|-----------------------8---10-----10-11---10---8------8---------------|
A|-----------8-10---11-----------------------------11-------------------|
E|--9---11--------------------------------------------------------------|




Fig1
G#

G#                           Cm
Sometimes i feel i`m getting old
C#
My brain is full of shit
    G#             D#
And i dont wanna know

G#                          Cm
The days are back for me to walk
C#                 G#          D#
I have nobody, and i can givin all

      Fm          D#
Givin all all the time
      Fm          G#
Givin all all the question
      Fm          D#         G
Givin all all the time to be heard

      C#               G#
In my life the complicated thing
D#             G#
Ruined all the day
      C#           G#             D#
In my life nothing seems to be so bad



      G#           D#
In my heart, in my soul
      Fm          Cm
In my mind, in my day
  C#         G#
I wanna be a supergirl
  C#            D#
I wanna be like that

      G#           D#
In my heart, in my soul
      Fm          Cm
In my mind, in my day
  C#         G#
I wanna be a supergirl
  C#            D#
I wanna be like that

G#
I wish that true Wish that is true
I wish that true Wish that is true
yey yey yeah


Fig2
G# D# Fm Cm C# G# C# D# 2x


      G#           D#
In my heart, in my soul
      Fm          Cm
In my mind, in my day
  C#         G#
I wanna be a supergirl
  C#            D#
I wanna be like that

      G#           D#
In my heart, in my soul
      Fm          Cm
In my mind, in my day
  C#         G#
I wanna be a supergirl
  C#            D#
I wanna be like that

G#
I wish that true Wish that is true
I wish that true Wish that is true
I wish that true


Postingan terkait:

Belum ada tanggapan untuk "Rosemary feat Gania - Super Girl (Chord and Tab)"

Post a Comment