Marjinal - Negeri ngeri (Chord and Tab)

Marjinal - Negeri ngeri (Chord and Tab)

Judul    : Negeri ngeri
Artist   : Marjinal
Tabbed by: Blex     

Fig1

e|--------------------------------------------------------------------------|
B|--5-5-5-5-5-5-3-3-5-3-6-6-6-8-6-5-6-5-3---3-----------3-5-3-------3-5-3-5-|
G|----------------------------------------5---5-2-5-2-5-------5-2-5---------|
D|--------------------------------------------------------------------------|
A|--------------------------------------------------------------------------|
E|--------------------------------------------------------------------------|

Fig2

e|-------------------------------------------------------------------------------------|
B|--5-5-5-8-5-8-10-8---8-10-8-8-10-8-6-5-3-5-3-5-3---------------3---5-3-------3-5-3-5-|
G|-------------------9-----------------------------5-2-5-2-5-2-5---5-----5-2-5---------|
D|-------------------------------------------------------------------------------------|
A|-------------------------------------------------------------------------------------|
E|-------------------------------------------------------------------------------------|

Intro:

Fig1

C G Dm Am F C E
Fig2

C G Dm Am F C E


G
Lihatlah Negeri kita
Dm             Am
yg subur dan Kaya raya
F              
sawah Ladang terhampar luas
E
Samudera biru

C                  G
Tapi rataplah  Negeri kita
Dm             Am
yg tinggal hanyalah cerita
F             C           E
cerita dan cerita terus cerita

Reff :

F                   G            
pengangguran Merebak luas
Em           Am
kemiskinan Merajalela
F               C              E
pedagang kaki lima tergusur teraniaya
F                 G
Bocah bocah kecil merintih
Em                 Am
menghabiskan waktu di jalanan
F             C         E
Buruh kerap dihadapi penderitaan



C          G
Inilah negeri kita
Dm         Am              F
Alamnya kelam tiada berbintang
  C                      E
Dari derita dan derita Menderita
C                   G
sampai kapankah derita ini
Dm                 Am
yang kaya darah dan air mata
F               C          E
yang senantiasa mewarnai bumi pertiwi

Reff :

F                   G            
pengangguran Merebak luas
Em           Am
kemiskinan Merajalela
F               C              E
pedagang kaki lima tergusur teraniaya
F                 G
Bocah bocah kecil merintih
Em                 Am
menghabiskan waktu di jalanan
F             C         E
Buruh kerap dihadapi penderitaan

Am G F E
Dinodai
Am   G   F E
Dikangkangi
Am G F E

Dikuasai



Fig1

C G Dm Am F C E
Fig2

C G Dm Am F C E

C          G
Inilah negri kita
Dm         Am              F
Alamnya kelam tiada berbintang
  C                      E
Dari derita dan derita Menderita
C                   G
sampai kapankah derita ini
Dm                 Am
yang kaya darah dan air mata
F               C          E
yang senantiasa mewarnai bumi pertiwi

Reff :

F                   G            
pengangguran Merebak luas
Em           Am
kemiskinan Merajalela
F               C              E
pedagang kaki lima tergusur teraniaya
F                 G
Bocah bocah kecil merintih
Em                 Am
menghabiskan waktu di jalanan
F             C         E
Buruh kerap dihadapi penderitaan
Dikuasai
Am       G      F       E
Dijajah para penguasa rakus


Postingan terkait:

Belum ada tanggapan untuk "Marjinal - Negeri ngeri (Chord and Tab)"

Post a Comment