Endank Soekamti - Pencuri Cinta (Chord and Tab)

Endank Soekamti - Pencuri Cinta (Chord and Tab)

Song        : Pencuri Cinta
Album       : Kelas 1
Artist      : Endank Soekamti
Tabbed by   : yoos

e|-------------------------------------------------------------------|
B|-------------------------------------------------------------------|
G|------------------------------2-2----------------------------------|
D|--------------2-2-------3-3-3-----------------0-0-------2-----2----|
A|--------3-3-3-----5-5-5-----------------2-2-2-----3-3-3---3-3---3--|
E|--5-5-5---------------------------3-3-3----------------------------|



e|-----------------------------------------------------------------------------|
B|-----------------------------------------------------------------------------|
G|-----------------------------------------------------------------------------|
D|------------3-2---------------------2------2------2---------3-2--------------|
A|--3-2-----------5-----2------2--------5-3----5-3----5-3---------5-----2------|
E|------5-----------------5-3----5-3--------------------------------------5-3--|



e|--------------------------------------------------------------|
B|--------------------------------------------------------------|
G|--------------------------------------------------------------|
D|--7-7-7-7-7-7-7-7-/10-10-10-10-\6-6-6-6-6-6-6-6-/10-10-10-10--|
A|--------------------------------------------------------------|
E|--5-5-5-5-5-5-5-5-/8--8--8--8--\4-4-4-4-4-4-4-4-/8--8--8--8---|

e|---------------------------------------------------------|
B|---------------------------------------------------------|
G|---------------------------------------------------------|
D|--\5-5-5-5-5-5-5-5-/10-10-10-10-\4-4-4-4-4-4-4-4--5-5-5--|
A|---------------------------------------------------------|
E|--\3-3-3-3-3-3-3-3-/8--8--8--8--\2-2-2-2-2-2-2-2--3-3-3--|



Letak tab nya dimana cari sendiri yah :)


Intro:
A5 D5 G5 C5 4x

A5             D5         G5       C5 B5
wahai kau pencuri cinta dimana berada
A5             D5         G5       C5 B5
diriku terasa hampa bila kau tak ada
A5             D5         G5       C5 B5
wahai pencuri cinta apa yang kau mau
A5             D5         G5       C5 B5
apapun aku lakukan untuk bersamamu

A5          F5          G5       B5 C5 D5
kau pencuri kau pencuri curi hatiku
A5           F5            G5        C5 B5
kau penjilat kau penghisap sari tubuhku
A5          F5          G5       B5 C5 D5
kau pencuri kau pencuri curi hatiku
A5           F5            G5        C5 B5
kau penjilat kau penghisap sari tubuhku

A5 D5 G5 C5 2x

A5             D5         G5       C5
apa yang akan kau minta katakan padaku
A5             D5         G5       C5
bila memang aku bisa selalu kuberi
A5             D5         G5       C5
asal saja kusenang tak jadi masalah
A5             D5         G5       C5 B5
apapun aku lakukan untuk bersamamu

A5          F5          G5       B5 C5 D5
kau pencuri kau pencuri curi hatiku
A5           F5            G5        C5 B5
kau penjilat kau penghisap sari tubuhku
A5          F5          G5       B5 C5 D5
kau pencuri kau pencuri curi hatiku
A5           F5            G5        C5 B5
kau penjilat kau penghisap sari tubuhku

A5 C5 G#5 C5 G5 C5 F#5 G5 2x

A5 D5 G5 C5 2x

A5          F5          G5       B5 C5 D5
kau pencuri kau pencuri curi hatiku
A5           F5            G5        C5 B5
kau penjilat kau penghisap sari tubuhku
A5          F5          G5       B5 C5 D5
kau pencuri kau pencuri curi hatiku
A5           F5            G5        C5 B5
kau penjilat kau penghisap sari tubuhku

A5 D5 G5 C5 2x

Postingan terkait:

Belum ada tanggapan untuk "Endank Soekamti - Pencuri Cinta (Chord and Tab)"

Post a Comment