Endank Soekamti - Pecundang (Chord and Tab)

Endank Soekamti - Pecundang (Chord and Tab)

Song        : Pecundang
Album       : Sssttt...!!!
Artist      : Endank Soekamti
Tabbed by   : yoos

intro
e|---------------------------------------------------------------------|
B|---------------------------------------------------------------------|
G|--6-----6-----6----4-----4-----4----7-x-6-x-4-x-2-x------------------|
D|-----------------------------------------------------4--4-4-4-4-4-4--|
A|----4-4---4-4---4----2-2---2-2---2--5-x-4-x-2-x-0-x--4--4-4-4-4-4-4--|
E|-----------------------------------------------------2--2-2-2-2-2-2--|

e|---------------------------------------------------------------------|
B|---------------------------------------------------------------------|
G|--6-----6-----6----4-----4-----4----7-x-6-x-4-x-2-x------------------|
D|-----------------------------------------------------4---------------|
A|----4-4---4-4---4----2-2---2-2---2--5-x-4-x-2-x-0-x------------------|
E|--------------------------------------------------------2-2-2-2-2-2--|

first
e|-----------------------------------------------|
B|-----------------------------------------------|
G|-----------------------------------------------|
D|-----------------------4-4----------6-6--4--4--|
A|----------4-4--2-2-5-5------4-4-7-7------4--4--|
E|--2-2-5-5--------------------------------2--2--|

outro
e|------------------------------|
B|------------------------------|
G|--/6-4h6-4---4--4h6-----------|
D|-----------7--------7--7h9-6--|
A|------------------------------|
E|------------------------------|

e|---------------------------------------|
B|---------------------------------------|
G|--------6--4h6-4----------4-4-4-4h6-2--|
D|--4h6-4----------2--2h4-2--------------| 4x
A|---------------------------------------|
E|---------------------------------------|


CHORD
=====

Intro
F#5 B5 C#5 F#5 4x

F#5          B5      C#5        F#5
sebelum saat ini aku hanya kutu buku
F#5          B5      C#5        F#5
sebelum hari ini aku terlalu pemalu

     B5            E5       C#5            F#5
semua orang menghinaku semua orang meninggalkanku
     B5            E5        A5       G#5   C#5
tiada pernah kurasakan betapa indahnya malam minggu

F#5          B5      C#5        F#5
sebelum saat ini aku selalu sendiri
F#5          B5      C#5        F#5
sebelum hari ini kebanyakan nonton tv

     B5            E5        A5       G#5   C#5
tapi kini kutaklukkan yang tercantik yang aku tunggu
     B5            E5        A5       G#5   C#5
tapi kini kurasakan malam minggu di setiap waktu

F#5           B5        C#5           F#5
bangunlah hai pecundang saatnya untuk perang
F#5          B5      C#5        F#5
lihatlah hai dunia saatnya kita menang

Intro
F#5 B5 C#5 F#5 2x

F#5          B5      C#5        F#5
sebelum saat ini tiada yang melirikku
F#5          B5      C#5        F#5
sebelum hari ini gayaku cupu selalu

     B5            E5        A5       G#5   C#5
tapi kini kumerasa bagaikan idola mereka
     B5            E5        A5       G#5   C#5
tapi kini kumerasa bagaikan rockstar yang mempesona

F#5           B5        C#5           F#5
bangunlah hai pecundang saatnya untuk perang
F#5          B5      C#5        F#5
lihatlah hai dunia saatnya kita menang

F#5           B5        C#5           F#5
bangunlah hai pecundang saatnya untuk perang
F#5          B5      C#5        F#5
lihatlah hai dunia saatnya kita menang

Outro
F#5 B5 C#5 F#5 4x

Postingan terkait:

Belum ada tanggapan untuk "Endank Soekamti - Pecundang (Chord and Tab)"

Post a Comment