Endank Soekamti - Ojo Nesu (Chord and Tab)


Judul    : Ojo Nesu
Artist   : Endank Soekamti
Album    : Soekamti Day
Tabbed by: Blex

Intro :



Em D C G [2x]

e|--------------------------|-------------------------------|
B|------6---------5---------|-----6-----8-6-8-10-11-10-8-6--|
G|--7-9---9-7-5-6-----5-7---|-7-9---9-7---------------------| [2X]
D|------------------8-----7-|-------------------------------|
A|--------------------------|-------------------------------|
E|--------------------------|-------------------------------|

Em G D Bm-D
Em G D Bm-D


[Verse]

Em                 G           D Bm-D
prengat prengut lincip lambene wooo
Em             G       D  Bm-D
ra penak banget suarane wooo
Em            G          D  Bm-D
sumpah mencicil sawangane wooo
Em           G        D  Bm-D
sajak arep metu matane...

[Interlude]

Em Bm C G, Em D C G [2x]
e|--------------------------|-------------------------------|
B|------6---------5---------|-----6-----8-6-8-10-11-10-8-6--|
G|--7-9---9-7-5-6-----5-7---|-7-9---9-7---------------------| [2X]
D|------------------8-----7-|-------------------------------|
A|--------------------------|-------------------------------|
E|--------------------------|-------------------------------|

[Verse]

Em                    G        D  Bm-D
njimplang njimplang karepe dewe wooo
Em           G             D  Bm-D
pancen ra ono sik nggateke wooo
Em        G          D   Bm-D
opo wae yo di salahke wooo
Em           G           D   Bm-D
rumangsane wis bener dewe..

Reff;
     G          B
nek nesu koyo wewe
     Em         G
elek banget rupane
     C        G         D
dikiro aku wedi karo kowe..
     G        B
uripe di penake
     Em        G
ora mung nesu wae
       C        G         D
ojo nesu mengko ilang anune..

Em              G         D   Bm-D
sing sabar jembar segarane (jem jem jem jembar)
Em        G          D   Bm-D
sakjane opo masalahe (hak hak hak e)
Em              G        D   Bm-D
mbok dirembuk piye penake (hak hak hak e)
Em           G       D   Bm-D
nyokot wae opo gunane...

 Reff;
          G        B
   nek nesu koyo wewe
        Em         G
   elek banget rupane
       C        G         D
   dikiro aku wedi karo kowe..
       G        B
   uripe di penake
        Em        G
   ora mung nesu wae
       C           G         D
   ojo nesu mengko ilang anune..

[Interlude]

Em C D..-Am...4x

 ==Kembali ke : Reff

 Outro : Em G D Bm-D [4x] Em-Em

 

Postingan terkait:

2 Tanggapan untuk "Endank Soekamti - Ojo Nesu (Chord and Tab)"