Endank Soekamti - Jurus Jitu (Chord and Tab)

Endank Soekamti - Jurus Jitu (Chord and Tab)




Song title   : Jurus Jitu
Artist       : Endank Soekamti
Album        : Soekamti.Com
Tabbed by    : yoos (yoosyoes.blogspot.com)


Fig1
e|---------------------------------------------------------------------------|
B|---------------------------------------------------------------------------|
G|--0-------0-------2-------2------------------------------7---------7-------|
D|----2---2---2---2---2---2---2---2-4-------4--------5--5------5--5----------|
A|------2-------2-------3-------3-----5---5---5---5--------5---------5-------|
E|--------------------------------------5-------5----3--3------3--3----------|

Fig2
e|-------------3--------------3--------------2--------------0----------------|
B|---------------------------------------------------------------------------|
G|---------------------------------------------------------------------------|
D|--2-2-2-2-2------5-5-5-5-5------7-7-7-7-7------5-5-5-5-5-------------------|
A|--2-2-2-2-2------3-3-3-3-3------5-5-5-5-5------5-5-5-5-5-------------------|
E|--0-0-0-0-0------------------------------------3-3-3-3-3-------------------|

Fig3
e|---------------------------------------------------------------------------|
B|---------------------------------------------------------------------------|
G|--10-10-10-10-10-10-10-10--12-12-12-12-12-12-12--7-7-7-7-7-7-7-7-----------|
D|---------------------------------------------------------------------------|
A|--8--8--8--8--8--8--8--8---10-10-10-10-10-10-10--5-5-5-5-5-5-5-5-----------|
E|---------------------------------------------------------------------------|

e|--------------------------------------------------------------------------------|
B|--------------------------------------------------------------------------------|
G|--10-10-10-10-10-10-10-10--10-10-10-10-10-10-10-10--12-12-12-12-12-12-12-12--7--|
D|--------------------------------------------------------------------------------|
A|--8--8--8--8--8--8--8--8---8--8--8--8--8--8--8--8---10-10-10-10-10-10-10-10--5--|
E|--------------------------------------------------------------------------------|

Fig4
e|--3-------3--------5-------5--------2-------2--------3-------3-------------|
B|----5---5---5---5----5---5---5---5----3---3---3---3----3---3--------3h5----|
G|------5-------5--------5-------5--------2-------2--------4------4h5--------|
D|---------------------------------------------------------------------------|
A|---------------------------------------------------------------------------|
E|---------------------------------------------------------------------------|

e|--3-------3--------5-------5-----------------------------------------------|
B|----5---5---5---5----5---5---5---5--9p7---9p7---9p7---9p9---9-10-9-10b12---|
G|------5-------5--------5-------5--------7-----7-----7-----7----------------|
D|---------------------------------------------------------------------------|
A|---------------------------------------------------------------------------|
E|---------------------------------------------------------------------------|


CHORD
==============================================================================





[Fig1]
Em C D G

      Em              C
Ternyata diriku tak bisa berkata
    D                  G
ketika berjumpa dengan kamu
      Em              C
ternyata tanganku tak bisa bergerak
    D                G
ketika ku ingin mengenalmu

[Fig2]
Em C D G

[Fig3]
C         D
aku sudah berencana
G          Am
semalam di depan kaca
C         D        G
melatih bicara padamu

      Em            C
skenario jurus jitu siap beraksi
       D                 G
tak berhasil bila dengan kamu
    Em                C
narasi yang sudah aku rangkai benar
       D             G
tak berlaku bila ada kamu

[Fig2]
Em C D G

[Fig3]
C         D
aku sudah berencana
G          Am
semalam di depan kaca
C         D        G
melatih bicara padamu

C        D
aku akan berusaha
G          Am
mendapat moment yang sama
C         D        G
mencoba bicara padamu

[Fig4]
Em C D G

[Fig3]
C         D
aku sudah berencana
G          Am
semalam di depan kaca
C         D        G
melatih bicara padamu

C        D
aku akan berusaha
G          Am
mendapat moment yang sama
C         D        G
mencoba bicara padamu


Postingan terkait:

Belum ada tanggapan untuk "Endank Soekamti - Jurus Jitu (Chord and Tab)"

Post a Comment