Endank Soekamti - Bau Mulut (Chord and Tab)


Judul     : Bau Mulut
Artist    : Endank Soekamti
Album     : Kelas1
Tabbed by : Blex


Fig1
e|--------------------------------------|
B|--------------------------------------|
G|-------------5-5---------7-7-4-4-5-5--|
D|--5-5-------------7-7-3-3-------------|
A|-----7-7-3-3--------------------------|
E|--------------------------------------|

Fig2
e|--------------------------------------|
B|--------------------------------------|
G|----------5-5---------7-7-4-4-5-5-----|
D|--5-5---------7-7-3-3-----------------|
A|------7-7-----------------------------|
E|--------------------------------------|

Intro :
G C D (6x)
(Fig1)1x
(Fig2)sampai selesai

[Verse 1]
G          D     Am         G
Kasihku tercinta maafkanlah aku
G        C    Am   D   G
Bila aku lupa cium dirimu

Intro :
G C D (2x)
(Fig1)1x
(Fig2)sampai selesai

[Verse 2]
 G           D     Am            G
Kasihku yang setia tak perlu kau minta
 G          C   Am   D   G
Nanti pasti aku cium dirimu
[Reff] 
C         Bm      Am  D       G
Bukan aku tak mau ataupun tak setuju
C           Bm        Am  D    G
Sekarang ku tak tahan bau mulutmu
     C      D     Em
Nana na… nana na nanana
    
C      D     Em
Nana na… nana  nana….
    
   C      D     Em
Nanana na… nana na nanana
     C      D     Em
Nana na… nana  nana
Intro :  
G C D (3x)

[Verse 1]
G          D     Am         G
Kasihku tercinta maafkanlah aku
G        C    Am   D   G
Bila aku lupa cium dirimu
[Reff] 
C         Bm      Am  D       G
Bukan aku tak mau ataupun tak setuju
C           Bm        Am  D    G
Sekarang ku tak tahan bau mulutmu
     C      D     Em
Nana na… nana na nanana
     C       D     Em
Nana na…  nana  nana….
     C      D     Em
Nana na… nana na nanana
     C       D     Em
Nana na…  nana  nana
Intro :  
G C D (4x)
        
G C D Em G D (2x)
[Reff] 
C         Bm      Am  D       G
Bukan aku tak mau ataupun tak setuju
C           Bm        Am  D    G
Sekarang ku tak tahan bau mulutmu
     C      D     Em
Nana na… nana na nanana
     C       D     Em
Nana na…  nana  nana….
     C      D     Em
Nana na… nana na nanana
     C       D     Em
Nana na…  nana  nana
Intro :  
G C D (8x) Em
(Fig1)1x
(Fig2)sampai selesai
C   D    Em
Bau mulutmu….
C   D    G
Bau mulutmu…. 


Postingan terkait:

Belum ada tanggapan untuk "Endank Soekamti - Bau Mulut (Chord and Tab)"

Post a Comment