Endank Soekamti - Asu Tenanan(Chord and Tab)

Endank Soekamti - Asu Tenanan(Chord and Tab)

Judul    : Asu Tenanan
Artist   : Endank Soekamti
Album    : Soekamti.com
Tabbed by: Andry

Fig1
e|----------------------------------------------------|
B|----------------------------------------------------|
G|----------------------------------------------------|2x
D|----------------------------------------------------|
A|--7-7-5-5---------------------5-5-7-7-8-8-7-7-5-5-7-|
E|----------8-8-7-7-5-5-7-7-8-8-----------------------|


Fig2
e|----------------------------------------------------|
B|----------------------------------------------------|
G|----------------------------------------------------|2x
D|--7-9-10--9-7---------------------------------------|
A|--------------10--8-7-10--8-7-----------------------|
E|------------------------------10--------------------|


Fig3
e|----------------------------------------------------|
B|----------------------------------------------------|
G|----------------------------------------------------|2x
D|--------5-3-------3---------5-3---------------------|
A|----3---------3-----5---3---------3---3-5-3---------|
E|--1---1-----1---1-----1---1-----1---1---------------|

Intro:
Am Em Am Em
(Fig1)2x

F C Am G   F C Am G
(Fig2)

F             C
Sandalku digondol asu
      Am               G
Tak gebhuk sapu sing duwe metu
F            C
Gukgukguk asune cilik
    Am             G
Keloro-loro sing duwe teko

F     C
Ayu tenan na...na...
Am        G
Sing duwe ayu tenanan
F       C
Manis tenan na..na...
Am        G
Sing duwe manis tenanan

C Am F G   C Am G F


(Fig3)

F            C
Gukgukguk asune cilik
      Am           G
Gondhol sandalku ra kondho-kondho
F                    C
Ra popo nek sing duwe asu
      Am            G
Gelem tak bojo lagi aku terima

F     C
Ayu tenan na...na...
Am        G
Sing duwe ayu tenanan
F       C
Manis tenan na..na...
Am        G
Sing duwe manis tenanan

C Am F G
Kenalan
C Am F G
Goro-goro asu
C Am F G
Terus marahan
C Am F G      Em F G
Goro-goro kewan

Am Em Am Em

(Fig1)
F C Am G   F C Am G

(Fig2)

F                 C
Kau lewat depan rumahku tiap hari
Am                  G
Dengan anjingmu sungguh seksi sekali
F                C
Berapa lama lagi aku bisa tahan
Am        G
Berdiam disini saja

C Am F G
Kenalan
C Am F G
Goro-goro asu
C Am F G
Kasmaran
C Am F G
Goro-goro
kewan

C Am F G
Kenalan
C Am F G
Goro-goro asu
C Am F G
Kasmaran
C Am F G      Em F G
Goro-goro kewan

F C Am G F


Postingan terkait:

Belum ada tanggapan untuk "Endank Soekamti - Asu Tenanan(Chord and Tab)"

Post a Comment