Devildice - Diamonds Are Forever (Chord and Tab)

Devildice - Diamonds Are Forever (Chord and Tab)

Song title   : Diamonds Are Forever
Artist       : Devildice
Tabbed by    : yoos

$Faza


Fig1
e|--------------------------------------------------------------------------|
B|--------------------------------------------------------------------------|
G|--------------------------------------------------------------------------|
D|--4-4-4---4h6-4---4---/6---7-6---6---/8---9-8-6-----/6--6--4---4h6-4---4--|
A|----------------7--------------9----------------7--------------------7----|
E|--------------------------------------------------------------------------|
          
Fig2
e|--------------------------------------------------------------------------|
B|--------------------------------------------------------------------------|
G|--------------------------------------------------3----------4---4--------|
D|------4---6p4-6-4-------6---7p6-7-6-----------4------4-4-4-6---6----4-2-4-|
A|--6h7---------------6h7--------------8--6---4---4-------------------------|
E|--------------------------------------------------------------------------|

e|--------------------------------------------------------------------------|
B|--------------------------------------------------------------------------|
G|--------------------------------------------------------------------------|
D|-----------9p8-9-8---6--4-------------------------------------------------|
A|--6p4-6-4-----------------------------------------------------------------|
E|--------------------------------------------------------------------------|

Fig3
e|--------------------------------------------------------------------------|
B|--------------------------------------------------------------------------|
G|----3-3-4--------4--------------------------------------------------------|
D|------------4--6---6-6-4-2-4----------------------------------------------|
A|--4-----------------------------------------------------------------------|
E|--------------------------------------------------------------------------|

Fig4
e|--------------------------------------------------------------------------|
B|--9p7-9-7-----------------------------------------------------------------|
G|-----------9p8-9-8--------------------------------------------------------|
D|--------------------------------------------------------------------------|
A|--------------------------------------------------------------------------|
E|--------------------------------------------------------------------------|

Fig5
e|--------------------------------------------------------------------------|
B|----------7----------7----------7----------7------------------------------|
G|-----8-8--------8-8--------8-8--------8-8---------------------------------|
D|--9----------9----------9----------9--------------------------------------|
A|--------------------------------------------------------------------------|
E|--------------------------------------------------------------------------|

e|----------7----------7----------7----------7------------------------------|
B|-----9-9--------9-9--------9-9--------9-9---------------------------------|
G|--9----------9----------9----------9--------------------------------------|
D|--------------------------------------------------------------------------|
A|--------------------------------------------------------------------------|
E|--------------------------------------------------------------------------|

Fig6
e|--7h9p7-6-7-------4-------------------4---6---9---------------------------|
B|----------------7---7p5p4-7-----------------------------------------------|
G|--------------------------------------------------------------------------|
D|--------------------------------------------------------------------------|
A|--------------------------------------------------------------------------|
E|--------------------------------------------------------------------------|

Fig7
e|--------------------------------------------------------------------------|
B|--9p7-9-7-----------------------------------------------------------------|
G|--------------------------------------------------------------------------|
D|--------------------------------------------------------------------------|
A|--------------------------------------------------------------------------|
E|--------------------------------------------------------------------------|

Fig8
e|--------------------------------------------------------------------------|
B|--------------------------------------------------------------------------|
G|-------------------4-4--3--------------4--------4-------------------------|
D|----4----------4-----------6--4-----6-----4-4h6---6-4--4--4---------------|
A|--6----4--4h6------------------------------------------------7-6--4-------|
E|--------------------------------------------------------------------------|

Fig9
e|--------------------------------------------------------------------------|
B|--------------------------------------------------------------------------|
G|-------------------4-4--3------------4-------4----------------------------|
D|----4----------4-----------6--6-4-6-----6-6-----6---4-4-4-4-4-4-4-4-------|
A|--6----4--4h6---------------------------------------4-4-4-4-4-4-4-4-------|
E|----------------------------------------------------2-2-2-2-2-2-2-2-------|


Fig1
B E F# E B
Fig2
B E F# E B

B
I heard that she's moving to the south
E
And she might will never coming back
Fig3                                       Fig4
F#              E                     B
Lord let me see her face for one last time


Fig5
B
Walking down with roses on her hair
E
This afternoon that i could always stare
Fig3
F#                     E             B
Amaze by the grace and beauty of her face


Fig6
          E                      B
Nothing i can say, nothing i can do
         E                  F#
Only the lord knows how she feels


Fig7
B
I'm looking at the blue blue sky
E
So this is my last goodbye
Fig3                                              Fig4
F#                       E                    B
I'm leaving this country tonight, i'll miss u boy


Fig5
B
It's true that i have never get your name
E
It's true that i have always wondered why
Fig3
F#                    E           B
Man with a charm that never goes away


Fig6
          E                      B
Nothing i can say, nothing i can do
         E                 F#
Only the lord knows how he feels


Fig8
B              G#m
Diamonds are forever
E                  F#
I feeling grows in lonely day
Fig9
B                 G#m
You're my long lost angel
E               F#   
Someone show me how to say


E                                F#
We're a match made in heaven and living in hell
    B            A#m            G#m
And tonight i will not let you go
         E               F#    B
Darling, taste my breath away


Fig1
B E F# E B


Fig6
          E                      B
Nothing i can say, nothing i can do
         E                 F#
Only the lord knows how we feels


Fig7
B
I heard that she's moving to the south

E
And she might will never coming back
Fig3                                       Fig4
F#              E                     B
Lord let me see her face for one last time


Fig5
B
I'm looking at the blue blue sky
E
So this is my last goodbye
Fig3
F#                       E                    B
I'm leaving this country tonight, i'll miss u boy


Fig6
          E                      B
Nothing i can say, nothing i can do
         E                 F#
Only the lord knows how we feels


Fig8
B              G#m
Diamonds are forever
E                  F#
Our feeling grows in lonely day

Fig8
B                 G#m
You're my long lost angel
E               F#   
Someone show me how to say

Fig8
B                G#m
We don't need to whisper
E               F#
Universe always listening

Fig9
B                  G#m
Light will shine forever
E              F#
This love for eternity


E                                F#
We're a match made in heaven and living in hell
    B            A#m            G#m
And tonight i will not let you go
         E               F#    B
Darling, taste my breath away

Postingan terkait:

Belum ada tanggapan untuk "Devildice - Diamonds Are Forever (Chord and Tab)"

Post a Comment